ISO-10303-21;
HEADER;
FILE_DESCRIPTION (( 'STEP AP214' ),
    '1' );
FILE_NAME ('FULLVAC BT1KF161940.STEP',
    '2019-04-24T08:14:35',
    ( '' ),
    ( '' ),
    'SwSTEP 2.0',
    'SolidWorks 2017',
    '' );
FILE_SCHEMA (( 'AUTOMOTIVE_DESIGN' ));
ENDSEC;

DATA;
#1 = EDGE_CURVE ( 'NONE', #18, #18, #213, .T. ) ;
#2 = CARTESIAN_POINT ( 'NONE',  ( -2.851678778707476000, 0.0000000000000000000, -15.00000000000000200 ) ) ;
#3 = UNCERTAINTY_MEASURE_WITH_UNIT (LENGTH_MEASURE( 1.000000000000000100E-005 ), #195, 'distance_accuracy_value', 'NONE');
#4 = CARTESIAN_POINT ( 'NONE',  ( -2.616336506010520100, 29.99999999999999600, 14.99999999999999800 ) ) ;
#5 = VERTEX_POINT ( 'NONE', #17 ) ;
#6 = CARTESIAN_POINT ( 'NONE',  ( 0.0000000000000000000, -6.465133052823780100E-016, 2.467162276944790000E-016 ) ) ;
#7 = CARTESIAN_POINT ( 'NONE',  ( 0.0000000000000000000, 0.0000000000000000000, 0.0000000000000000000 ) ) ;
#8 = CARTESIAN_POINT ( 'NONE',  ( -3.099299419165111300, 0.0000000000000000000, 0.0000000000000000000 ) ) ;
#9 = EDGE_CURVE ( 'NONE', #119, #119, #136, .T. ) ;
#10 = VERTEX_POINT ( 'NONE', #111 ) ;
#11 = ORIENTED_EDGE ( 'NONE', *, *, #1, .F. ) ;
#12 =( NAMED_UNIT ( * ) SI_UNIT ( $, .STERADIAN. ) SOLID_ANGLE_UNIT ( ) );
#13 =( NAMED_UNIT ( * ) SI_UNIT ( $, .STERADIAN. ) SOLID_ANGLE_UNIT ( ) );
#14 = ORIENTED_EDGE ( 'NONE', *, *, #122, .F. ) ;
#15 = AXIS2_PLACEMENT_3D ( 'NONE', #54, #257, #226 ) ;
#16 = PRODUCT ( 'FULLVAC BT1KF161940', 'FULLVAC BT1KF161940', '', ( #50 ) ) ;
#17 = CARTESIAN_POINT ( 'NONE',  ( -2.540000000000000000, 0.0000000000000000000, 7.875000000000000000 ) ) ;
#18 = VERTEX_POINT ( 'NONE', #233 ) ;
#19 = ORIENTED_EDGE ( 'NONE', *, *, #217, .F. ) ;
#20 = EDGE_LOOP ( 'NONE', ( #14 ) ) ;
#21 = ADVANCED_FACE ( 'NONE', ( #62, #157 ), #237, .T. ) ;
#22 = MECHANICAL_DESIGN_GEOMETRIC_PRESENTATION_REPRESENTATION (  '', ( #244 ), #174 ) ;
#23 = FACE_OUTER_BOUND ( 'NONE', #78, .T. ) ;
#24 = CARTESIAN_POINT ( 'NONE',  ( -2.851678778707476000, 30.00000000000000000, -15.00000000000000000 ) ) ;
#25 = AXIS2_PLACEMENT_3D ( 'NONE', #110, #197, #152 ) ;
#26 = CARTESIAN_POINT ( 'NONE',  ( -2.616336506010520100, 0.0000000000000000000, -15.00000000000000200 ) ) ;
#27 = ORIENTED_EDGE ( 'NONE', *, *, #43, .T. ) ;
#28 = DIRECTION ( 'NONE',  ( 1.000000000000000000, -0.0000000000000000000, 0.0000000000000000000 ) ) ;
#29 = DIRECTION ( 'NONE',  ( 0.0000000000000000000, 0.0000000000000000000, 1.000000000000000000 ) ) ;
#30 = APPLICATION_PROTOCOL_DEFINITION ( 'draft international standard', 'automotive_design', 1998, #113 ) ;
#31 = SURFACE_STYLE_USAGE ( .BOTH. , #155 ) ;
#32 = FACE_OUTER_BOUND ( 'NONE', #154, .T. ) ;
#33 = UNCERTAINTY_MEASURE_WITH_UNIT (LENGTH_MEASURE( 1.000000000000000100E-005 ), #175, 'distance_accuracy_value', 'NONE');
#34 = DIRECTION ( 'NONE',  ( 0.0000000000000000000, 0.0000000000000000000, -1.000000000000000000 ) ) ;
#35 = FACE_OUTER_BOUND ( 'NONE', #20, .T. ) ;
#36 = PRODUCT_DEFINITION_FORMATION_WITH_SPECIFIED_SOURCE ( 'ANY', '', #16, .NOT_KNOWN. ) ;
#37 = ORIENTED_EDGE ( 'NONE', *, *, #255, .T. ) ;
#38 = AXIS2_PLACEMENT_3D ( 'NONE', #252, #132, #95 ) ;
#39 = SHAPE_DEFINITION_REPRESENTATION ( #215, #71 ) ;
#40 = CARTESIAN_POINT ( 'NONE',  ( -2.616336506010520100, -29.99999999999999600, 14.99999999999999800 ) ) ;
#41 = EDGE_LOOP ( 'NONE', ( #19 ) ) ;
#42 = PLANE ( 'NONE',  #147 ) ;
#43 = EDGE_CURVE ( 'NONE', #5, #5, #83, .T. ) ;
#44 = FILL_AREA_STYLE_COLOUR ( '', #108 ) ;
#45 = DIRECTION ( 'NONE',  ( -1.000000000000000000, 0.0000000000000000000, 0.0000000000000000000 ) ) ;
#46 = FILL_AREA_STYLE ('',( #47 ) ) ;
#47 = FILL_AREA_STYLE_COLOUR ( '', #234 ) ;
#48 = AXIS2_PLACEMENT_3D ( 'NONE', #146, #106, #247 ) ;
#49 = FACE_OUTER_BOUND ( 'NONE', #91, .T. ) ;
#50 = PRODUCT_CONTEXT ( 'NONE', #113, 'mechanical' ) ;
#51 = AXIS2_PLACEMENT_3D ( 'NONE', #87, #248, #117 ) ;
#52 = CIRCLE ( 'NONE', #56, 9.525000000000000400 ) ;
#53 =( NAMED_UNIT ( * ) PLANE_ANGLE_UNIT ( ) SI_UNIT ( $, .RADIAN. ) );
#54 = CARTESIAN_POINT ( 'NONE',  ( 0.0000000000000000000, 0.0000000000000000000, 0.0000000000000000000 ) ) ;
#55 = EDGE_LOOP ( 'NONE', ( #232 ) ) ;
#56 = AXIS2_PLACEMENT_3D ( 'NONE', #89, #212, #29 ) ;
#57 = SURFACE_STYLE_FILL_AREA ( #92 ) ;
#58 = ADVANCED_FACE ( 'NONE', ( #32, #133 ), #99, .T. ) ;
#59 = ADVANCED_FACE ( 'NONE', ( #49, #140 ), #161, .T. ) ;
#60 = CARTESIAN_POINT ( 'NONE',  ( -2.851678778707476000, 0.0000000000000000000, 15.00000000000000200 ) ) ;
#61 = VERTEX_POINT ( 'NONE', #250 ) ;
#62 = FACE_OUTER_BOUND ( 'NONE', #198, .T. ) ;
#63 = CARTESIAN_POINT ( 'NONE',  ( -3.038388356863342300, 29.71346540353370000, -14.85673270176685000 ) ) ;
#64 = PRODUCT_DEFINITION_CONTEXT ( 'detailed design', #249, 'design' ) ;
#65 = CARTESIAN_POINT ( 'NONE',  ( 0.0000000000000000000, 0.0000000000000000000, 0.0000000000000000000 ) ) ;
#66 = AXIS2_PLACEMENT_3D ( 'NONE', #134, #156, #73 ) ;
#67 = DIRECTION ( 'NONE',  ( 0.0000000000000000000, 1.000000000000000000, 0.0000000000000000000 ) ) ;
#68 = FACE_BOUND ( 'NONE', #75, .T. ) ;
#69 = EDGE_LOOP ( 'NONE', ( #173 ) ) ;
#70 = SURFACE_STYLE_USAGE ( .BOTH. , #131 ) ;
#71 = ADVANCED_BREP_SHAPE_REPRESENTATION ( 'FULLVAC BT1KF161940', ( #245, #25 ), #158 ) ;
#72 = CLOSED_SHELL ( 'NONE', ( #79, #125, #58, #162, #59, #238, #21, #204, #100 ) ) ;
#73 = DIRECTION ( 'NONE',  ( 0.0000000000000000000, 0.0000000000000000000, 1.000000000000000000 ) ) ;
#74 = FACE_OUTER_BOUND ( 'NONE', #225, .T. ) ;
#75 = EDGE_LOOP ( 'NONE', ( #27 ) ) ;
#76 = CARTESIAN_POINT ( 'NONE',  ( 0.0000000000000000000, 0.0000000000000000000, 8.599999999999999600 ) ) ;
#77 = STYLED_ITEM ( 'NONE', ( #169 ), #245 ) ;
#78 = EDGE_LOOP ( 'NONE', ( #137 ) ) ;
#79 = ADVANCED_FACE ( 'NONE', ( #90, #105 ), #224, .T. ) ;
#80 = EDGE_LOOP ( 'NONE', ( #201 ) ) ;
#81 = CARTESIAN_POINT ( 'NONE',  ( -3.038388356863342300, 0.0000000000000000000, 14.85673270176685000 ) ) ;
#82 = DIRECTION ( 'NONE',  ( -1.000000000000000000, 0.0000000000000000000, 0.0000000000000000000 ) ) ;
#83 = CIRCLE ( 'NONE', #66, 7.875000000000000000 ) ;
#84 = DIRECTION ( 'NONE',  ( 0.0000000000000000000, 0.0000000000000000000, -1.000000000000000000 ) ) ;
#85 = CARTESIAN_POINT ( 'NONE',  ( -2.540000000000000000, -2.151595008963480300E-016, 5.180853557315900500E-016 ) ) ;
#86 =( NAMED_UNIT ( * ) SI_UNIT ( $, .STERADIAN. ) SOLID_ANGLE_UNIT ( ) );
#87 = CARTESIAN_POINT ( 'NONE',  ( 0.0000000000000000000, 0.0000000000000000000, 0.0000000000000000000 ) ) ;
#88 = AXIS2_PLACEMENT_3D ( 'NONE', #116, #216, #93 ) ;
#89 = CARTESIAN_POINT ( 'NONE',  ( -40.00000000000000000, 0.0000000000000000000, 0.0000000000000000000 ) ) ;
#90 = FACE_OUTER_BOUND ( 'NONE', #235, .T. ) ;
#91 = EDGE_LOOP ( 'NONE', ( #164 ) ) ;
#92 = FILL_AREA_STYLE ('',( #44 ) ) ;
#93 = DIRECTION ( 'NONE',  ( 0.0000000000000000000, 0.0000000000000000000, 1.000000000000000000 ) ) ;
#94 = PRESENTATION_LAYER_ASSIGNMENT (  '', '', ( #244 ) ) ;
#95 = DIRECTION ( 'NONE',  ( 0.0000000000000000000, 0.0000000000000000000, 1.000000000000000000 ) ) ;
#96 =( NAMED_UNIT ( * ) PLANE_ANGLE_UNIT ( ) SI_UNIT ( $, .RADIAN. ) );
#97 = CIRCLE ( 'NONE', #240, 15.00000000000000000 ) ;
#98 = CARTESIAN_POINT ( 'NONE',  ( -3.099299419155043800, 0.0000000000000000000, 14.62940952255130100 ) ) ;
#99 = CONICAL_SURFACE ( 'NONE', #229, 14.62940952255399700, 1.308996939000000000 ) ;
#100 = ADVANCED_FACE ( 'NONE', ( #163, #112 ), #42, .T. ) ;
#101 = CARTESIAN_POINT ( 'NONE',  ( -3.099299419155043800, 0.0000000000000000000, 14.62940952255130100 ) ) ;
#102 = CARTESIAN_POINT ( 'NONE',  ( -2.616336506010520100, 29.99999999999999600, -14.99999999999999800 ) ) ;
#103 = AXIS2_PLACEMENT_3D ( 'NONE', #228, #192, #107 ) ;
#104 = CIRCLE ( 'NONE', #103, 9.525000000000000400 ) ;
#105 = FACE_OUTER_BOUND ( 'NONE', #191, .T. ) ;
#106 = DIRECTION ( 'NONE',  ( -1.000000000000000000, 0.0000000000000000000, 0.0000000000000000000 ) ) ;
#107 = DIRECTION ( 'NONE',  ( 0.0000000000000000000, 0.0000000000000000000, 1.000000000000000000 ) ) ;
#108 = COLOUR_RGB ( '',0.7450980392156862900, 0.7450980392156862900, 0.7450980392156862900 ) ;
#109 = DIRECTION ( 'NONE',  ( 0.0000000000000000000, 0.0000000000000000000, -1.000000000000000000 ) ) ;
#110 = CARTESIAN_POINT ( 'NONE',  ( 0.0000000000000000000, 0.0000000000000000000, 0.0000000000000000000 ) ) ;
#111 = CARTESIAN_POINT ( 'NONE',  ( -40.00000000000000000, 0.0000000000000000000, 7.875000000000000000 ) ) ;
#112 = FACE_OUTER_BOUND ( 'NONE', #177, .T. ) ;
#113 = APPLICATION_CONTEXT ( 'automotive_design' ) ;
#114 =( NAMED_UNIT ( * ) PLANE_ANGLE_UNIT ( ) SI_UNIT ( $, .RADIAN. ) );
#115 = AXIS2_PLACEMENT_3D ( 'NONE', #230, #207, #190 ) ;
#116 = CARTESIAN_POINT ( 'NONE',  ( 0.0000000000000000000, 0.0000000000000000000, 0.0000000000000000000 ) ) ;
#117 = DIRECTION ( 'NONE',  ( 0.0000000000000000000, 0.0000000000000000000, 1.000000000000000000 ) ) ;
#118 = FACE_OUTER_BOUND ( 'NONE', #80, .T. ) ;
#119 = VERTEX_POINT ( 'NONE', #76 ) ;
#120 = APPLICATION_PROTOCOL_DEFINITION ( 'draft international standard', 'automotive_design', 1998, #249 ) ;
#121 = EDGE_LOOP ( 'NONE', ( #220 ) ) ;
#122 = EDGE_CURVE ( 'NONE', #139, #139, #210, .T. ) ;
#123 = ORIENTED_EDGE ( 'NONE', *, *, #143, .T. ) ;
#124 = CARTESIAN_POINT ( 'NONE',  ( -2.851678778707476000, 0.0000000000000000000, 15.00000000000000200 ) ) ;
#125 = ADVANCED_FACE ( 'NONE', ( #148, #179 ), #129, .F. ) ;
#126 = ORIENTED_EDGE ( 'NONE', *, *, #189, .F. ) ;
#127 = CARTESIAN_POINT ( 'NONE',  ( -3.099299419155043800, -29.25881904510259800, -14.62940952255129900 ) ) ;
#128 = ORIENTED_EDGE ( 'NONE', *, *, #9, .T. ) ;
#129 = PLANE ( 'NONE',  #184 ) ;
#130 = ORIENTED_EDGE ( 'NONE', *, *, #242, .T. ) ;
#131 = SURFACE_SIDE_STYLE ('',( #57 ) ) ;
#132 = DIRECTION ( 'NONE',  ( -1.000000000000000000, 0.0000000000000000000, 0.0000000000000000000 ) ) ;
#133 = FACE_BOUND ( 'NONE', #41, .T. ) ;
#134 = CARTESIAN_POINT ( 'NONE',  ( -2.540000000000000000, 0.0000000000000000000, 0.0000000000000000000 ) ) ;
#135 = VERTEX_POINT ( 'NONE', #150 ) ;
#136 = CIRCLE ( 'NONE', #88, 8.599999999999999600 ) ;
#137 = ORIENTED_EDGE ( 'NONE', *, *, #122, .T. ) ;
#138 = CARTESIAN_POINT ( 'NONE',  ( -3.038388356863342300, 0.0000000000000000000, 14.85673270176685000 ) ) ;
#139 = VERTEX_POINT ( 'NONE', #172 ) ;
#140 = FACE_OUTER_BOUND ( 'NONE', #69, .T. ) ;
#141 = CARTESIAN_POINT ( 'NONE',  ( -3.038388356863342300, -29.71346540353370000, -14.85673270176685000 ) ) ;
#142 = CARTESIAN_POINT ( 'NONE',  ( -3.038388356863342300, -29.71346540353370000, 14.85673270176685000 ) ) ;
#143 = EDGE_CURVE ( 'NONE', #10, #10, #153, .T. ) ;
#144 = ORIENTED_EDGE ( 'NONE', *, *, #217, .T. ) ;
#145 = DIRECTION ( 'NONE',  ( 0.0000000000000000000, 0.0000000000000000000, 1.000000000000000000 ) ) ;
#146 = CARTESIAN_POINT ( 'NONE',  ( -40.00000000000000000, 0.0000000000000000000, 0.0000000000000000000 ) ) ;
#147 = AXIS2_PLACEMENT_3D ( 'NONE', #6, #168, #84 ) ;
#148 = FACE_BOUND ( 'NONE', #121, .T. ) ;
#149 = CARTESIAN_POINT ( 'NONE',  ( 0.0000000000000000000, 0.0000000000000000000, 0.0000000000000000000 ) ) ;
#150 = CARTESIAN_POINT ( 'NONE',  ( 0.0000000000000000000, 0.0000000000000000000, 15.00000000000000000 ) ) ;
#151 = CARTESIAN_POINT ( 'NONE',  ( -4.467021828560399800, 0.0000000000000000000, 9.525000000000000400 ) ) ;
#152 = DIRECTION ( 'NONE',  ( 1.000000000000000000, 0.0000000000000000000, 0.0000000000000000000 ) ) ;
#153 = CIRCLE ( 'NONE', #48, 7.875000000000000000 ) ;
#154 = EDGE_LOOP ( 'NONE', ( #130 ) ) ;
#155 = SURFACE_SIDE_STYLE ('',( #200 ) ) ;
#156 = DIRECTION ( 'NONE',  ( -1.000000000000000000, 0.0000000000000000000, 0.0000000000000000000 ) ) ;
#157 = FACE_OUTER_BOUND ( 'NONE', #55, .T. ) ;
#158 =( GEOMETRIC_REPRESENTATION_CONTEXT ( 3 ) GLOBAL_UNCERTAINTY_ASSIGNED_CONTEXT ( ( #182 ) ) GLOBAL_UNIT_ASSIGNED_CONTEXT ( ( #180, #53, #13 ) ) REPRESENTATION_CONTEXT ( 'NONE', 'WORKASPACE' ) );
#159 = CARTESIAN_POINT ( 'NONE',  ( -3.099299419155043800, 29.25881904510259800, -14.62940952255129900 ) ) ;
#160 = AXIS2_PLACEMENT_3D ( 'NONE', #85, #166, #194 ) ;
#161 =( BOUNDED_SURFACE ( )  B_SPLINE_SURFACE ( 3, 3, ( 
 ( #98, #236, #159, #188, #127, #205, #101 ),
 ( #138, #185, #63, #239, #141, #142, #81 ),
 ( #124, #241, #24, #2, #223, #187, #60 ),
 ( #206, #4, #102, #26, #165, #40, #227 ) ),
 .UNSPECIFIED., .F., .T., .F. ) 
 B_SPLINE_SURFACE_WITH_KNOTS ( ( 4, 4 ),
 ( 4, 3, 4 ),
 ( 0.0000000000000000000, 1.000000000000000000 ),
 ( 0.0000000000000000000, 0.5000000000000000000, 1.000000000000000000 ),
 .UNSPECIFIED. ) 
 GEOMETRIC_REPRESENTATION_ITEM ( )  RATIONAL_B_SPLINE_SURFACE ( (
 ( 1.000000000000000000, 0.3333333333333333100, 0.3333333333333333100, 1.000000000000000000, 0.3333333333333333100, 0.3333333333333333100, 1.000000000000000000),
 ( 0.8622355601941731300, 0.2874118533980576900, 0.2874118533980576900, 0.8622355601941731300, 0.2874118533980576900, 0.2874118533980576900, 0.8622355601941731300),
 ( 0.8622355601941731300, 0.2874118533980576900, 0.2874118533980576900, 0.8622355601941731300, 0.2874118533980576900, 0.2874118533980576900, 0.8622355601941731300),
 ( 1.000000000000000000, 0.3333333333333333100, 0.3333333333333333100, 1.000000000000000000, 0.3333333333333333100, 0.3333333333333333100, 1.000000000000000000) ) ) 
 REPRESENTATION_ITEM ( '' )  SURFACE ( )  );
#162 = ADVANCED_FACE ( 'NONE', ( #74, #186 ), #222, .F. ) ;
#163 = FACE_BOUND ( 'NONE', #181, .T. ) ;
#164 = ORIENTED_EDGE ( 'NONE', *, *, #242, .F. ) ;
#165 = CARTESIAN_POINT ( 'NONE',  ( -2.616336506010520100, -29.99999999999999600, -14.99999999999999800 ) ) ;
#166 = DIRECTION ( 'NONE',  ( 1.000000000000000000, -0.0000000000000000000, 0.0000000000000000000 ) ) ;
#167 = DIRECTION ( 'NONE',  ( 0.0000000000000000000, 0.0000000000000000000, 1.000000000000000000 ) ) ;
#168 = DIRECTION ( 'NONE',  ( 1.000000000000000000, -0.0000000000000000000, 0.0000000000000000000 ) ) ;
#169 = PRESENTATION_STYLE_ASSIGNMENT (( #70 ) ) ;
#170 = DIRECTION ( 'NONE',  ( -1.000000000000000000, 0.0000000000000000000, 0.0000000000000000000 ) ) ;
#171 = CARTESIAN_POINT ( 'NONE',  ( -40.00000000000000000, 1.942647462161249900E-016, 4.857358321145719700E-016 ) ) ;
#172 = CARTESIAN_POINT ( 'NONE',  ( -2.540000000000000000, 0.0000000000000000000, 8.599999999999999600 ) ) ;
#173 = ORIENTED_EDGE ( 'NONE', *, *, #1, .T. ) ;
#174 =( GEOMETRIC_REPRESENTATION_CONTEXT ( 3 ) GLOBAL_UNCERTAINTY_ASSIGNED_CONTEXT ( ( #3 ) ) GLOBAL_UNIT_ASSIGNED_CONTEXT ( ( #195, #96, #12 ) ) REPRESENTATION_CONTEXT ( 'NONE', 'WORKASPACE' ) );
#175 =( LENGTH_UNIT ( ) NAMED_UNIT ( * ) SI_UNIT ( .MILLI., .METRE. ) );
#176 = CARTESIAN_POINT ( 'NONE',  ( -3.099299419165110400, 0.0000000000000000000, 0.0000000000000000000 ) ) ;
#177 = EDGE_LOOP ( 'NONE', ( #126 ) ) ;
#178 = AXIS2_PLACEMENT_3D ( 'NONE', #149, #82, #211 ) ;
#179 = FACE_OUTER_BOUND ( 'NONE', #246, .T. ) ;
#180 =( LENGTH_UNIT ( ) NAMED_UNIT ( * ) SI_UNIT ( .MILLI., .METRE. ) );
#181 = EDGE_LOOP ( 'NONE', ( #128 ) ) ;
#182 = UNCERTAINTY_MEASURE_WITH_UNIT (LENGTH_MEASURE( 1.000000000000000100E-005 ), #180, 'distance_accuracy_value', 'NONE');
#183 = ORIENTED_EDGE ( 'NONE', *, *, #255, .F. ) ;
#184 = AXIS2_PLACEMENT_3D ( 'NONE', #171, #28, #109 ) ;
#185 = CARTESIAN_POINT ( 'NONE',  ( -3.038388356863342300, 29.71346540353370000, 14.85673270176685000 ) ) ;
#186 = FACE_OUTER_BOUND ( 'NONE', #203, .T. ) ;
#187 = CARTESIAN_POINT ( 'NONE',  ( -2.851678778707476000, -30.00000000000000000, 15.00000000000000000 ) ) ;
#188 = CARTESIAN_POINT ( 'NONE',  ( -3.099299419155043800, 0.0000000000000000000, -14.62940952255130100 ) ) ;
#189 = EDGE_CURVE ( 'NONE', #135, #135, #97, .T. ) ;
#190 = DIRECTION ( 'NONE',  ( 0.0000000000000000000, 0.0000000000000000000, 1.000000000000000000 ) ) ;
#191 = EDGE_LOOP ( 'NONE', ( #144 ) ) ;
#192 = DIRECTION ( 'NONE',  ( -1.000000000000000000, 0.0000000000000000000, 0.0000000000000000000 ) ) ;
#193 =( GEOMETRIC_REPRESENTATION_CONTEXT ( 3 ) GLOBAL_UNCERTAINTY_ASSIGNED_CONTEXT ( ( #33 ) ) GLOBAL_UNIT_ASSIGNED_CONTEXT ( ( #175, #114, #86 ) ) REPRESENTATION_CONTEXT ( 'NONE', 'WORKASPACE' ) );
#194 = DIRECTION ( 'NONE',  ( 0.0000000000000000000, 0.0000000000000000000, -1.000000000000000000 ) ) ;
#195 =( LENGTH_UNIT ( ) NAMED_UNIT ( * ) SI_UNIT ( .MILLI., .METRE. ) );
#196 = CARTESIAN_POINT ( 'NONE',  ( -40.00000000000000000, 0.0000000000000000000, 9.525000000000000400 ) ) ;
#197 = DIRECTION ( 'NONE',  ( 0.0000000000000000000, 0.0000000000000000000, 1.000000000000000000 ) ) ;
#198 = EDGE_LOOP ( 'NONE', ( #11 ) ) ;
#199 = AXIS2_PLACEMENT_3D ( 'NONE', #8, #218, #67 ) ;
#200 = SURFACE_STYLE_FILL_AREA ( #46 ) ;
#201 = ORIENTED_EDGE ( 'NONE', *, *, #9, .F. ) ;
#202 = CYLINDRICAL_SURFACE ( 'NONE', #256, 8.599999999999999600 ) ;
#203 = EDGE_LOOP ( 'NONE', ( #258 ) ) ;
#204 = ADVANCED_FACE ( 'NONE', ( #118, #35 ), #202, .F. ) ;
#205 = CARTESIAN_POINT ( 'NONE',  ( -3.099299419155043800, -29.25881904510259800, 14.62940952255129900 ) ) ;
#206 = CARTESIAN_POINT ( 'NONE',  ( -2.616336506010520100, 0.0000000000000000000, 15.00000000000000200 ) ) ;
#207 = DIRECTION ( 'NONE',  ( 1.000000000000000000, -0.0000000000000000000, -0.0000000000000000000 ) ) ;
#208 = PRESENTATION_LAYER_ASSIGNMENT (  '', '', ( #77 ) ) ;
#209 = PLANE ( 'NONE',  #160 ) ;
#210 = CIRCLE ( 'NONE', #115, 8.599999999999999600 ) ;
#211 = DIRECTION ( 'NONE',  ( 0.0000000000000000000, 0.0000000000000000000, 1.000000000000000000 ) ) ;
#212 = DIRECTION ( 'NONE',  ( 1.000000000000000000, -0.0000000000000000000, -0.0000000000000000000 ) ) ;
#213 = CIRCLE ( 'NONE', #38, 15.00000000000000000 ) ;
#214 = PRODUCT_DEFINITION ( 'UNKNOWN', '', #36, #64 ) ;
#215 = PRODUCT_DEFINITION_SHAPE ( 'NONE', 'NONE',  #214 ) ;
#216 = DIRECTION ( 'NONE',  ( -1.000000000000000000, 0.0000000000000000000, 0.0000000000000000000 ) ) ;
#217 = EDGE_CURVE ( 'NONE', #254, #254, #104, .T. ) ;
#218 = DIRECTION ( 'NONE',  ( -1.000000000000000000, -0.0000000000000000000, -0.0000000000000000000 ) ) ;
#219 = VERTEX_POINT ( 'NONE', #196 ) ;
#220 = ORIENTED_EDGE ( 'NONE', *, *, #143, .F. ) ;
#221 = MECHANICAL_DESIGN_GEOMETRIC_PRESENTATION_REPRESENTATION (  '', ( #77 ), #193 ) ;
#222 = CYLINDRICAL_SURFACE ( 'NONE', #178, 7.875000000000000000 ) ;
#223 = CARTESIAN_POINT ( 'NONE',  ( -2.851678778707476000, -30.00000000000000000, -15.00000000000000000 ) ) ;
#224 = CYLINDRICAL_SURFACE ( 'NONE', #15, 9.525000000000000400 ) ;
#225 = EDGE_LOOP ( 'NONE', ( #123 ) ) ;
#226 = DIRECTION ( 'NONE',  ( 0.0000000000000000000, 0.0000000000000000000, 1.000000000000000000 ) ) ;
#227 = CARTESIAN_POINT ( 'NONE',  ( -2.616336506010520100, 0.0000000000000000000, 15.00000000000000200 ) ) ;
#228 = CARTESIAN_POINT ( 'NONE',  ( -4.467021828560399800, 0.0000000000000000000, 0.0000000000000000000 ) ) ;
#229 = AXIS2_PLACEMENT_3D ( 'NONE', #176, #253, #34 ) ;
#230 = CARTESIAN_POINT ( 'NONE',  ( -2.540000000000000000, 0.0000000000000000000, 0.0000000000000000000 ) ) ;
#231 = CIRCLE ( 'NONE', #199, 14.62940952255399400 ) ;
#232 = ORIENTED_EDGE ( 'NONE', *, *, #189, .T. ) ;
#233 = CARTESIAN_POINT ( 'NONE',  ( -2.616336506010520100, 0.0000000000000000000, 15.00000000000000000 ) ) ;
#234 = COLOUR_RGB ( '',0.7450980392156862900, 0.7450980392156862900, 0.7450980392156862900 ) ;
#235 = EDGE_LOOP ( 'NONE', ( #37 ) ) ;
#236 = CARTESIAN_POINT ( 'NONE',  ( -3.099299419155043800, 29.25881904510259800, 14.62940952255129900 ) ) ;
#237 = CYLINDRICAL_SURFACE ( 'NONE', #51, 15.00000000000000000 ) ;
#238 = ADVANCED_FACE ( 'NONE', ( #68, #23 ), #209, .T. ) ;
#239 = CARTESIAN_POINT ( 'NONE',  ( -3.038388356863342300, 0.0000000000000000000, -14.85673270176685000 ) ) ;
#240 = AXIS2_PLACEMENT_3D ( 'NONE', #65, #170, #167 ) ;
#241 = CARTESIAN_POINT ( 'NONE',  ( -2.851678778707476000, 30.00000000000000000, 15.00000000000000000 ) ) ;
#242 = EDGE_CURVE ( 'NONE', #61, #61, #231, .T. ) ;
#243 = PRESENTATION_STYLE_ASSIGNMENT (( #31 ) ) ;
#244 = STYLED_ITEM ( 'NONE', ( #243 ), #71 ) ;
#245 = MANIFOLD_SOLID_BREP ( '\X2\5BE69AD4\X0\1', #72 ) ;
#246 = EDGE_LOOP ( 'NONE', ( #183 ) ) ;
#247 = DIRECTION ( 'NONE',  ( 0.0000000000000000000, 0.0000000000000000000, 1.000000000000000000 ) ) ;
#248 = DIRECTION ( 'NONE',  ( -1.000000000000000000, 0.0000000000000000000, 0.0000000000000000000 ) ) ;
#249 = APPLICATION_CONTEXT ( 'automotive_design' ) ;
#250 = CARTESIAN_POINT ( 'NONE',  ( -3.099299419165111300, 14.62940952255399400, 0.0000000000000000000 ) ) ;
#251 = PRODUCT_RELATED_PRODUCT_CATEGORY ( 'part', '', ( #16 ) ) ;
#252 = CARTESIAN_POINT ( 'NONE',  ( -2.616336506010520100, 0.0000000000000000000, 0.0000000000000000000 ) ) ;
#253 = DIRECTION ( 'NONE',  ( 1.000000000000000000, 0.0000000000000000000, -0.0000000000000000000 ) ) ;
#254 = VERTEX_POINT ( 'NONE', #151 ) ;
#255 = EDGE_CURVE ( 'NONE', #219, #219, #52, .T. ) ;
#256 = AXIS2_PLACEMENT_3D ( 'NONE', #7, #45, #145 ) ;
#257 = DIRECTION ( 'NONE',  ( -1.000000000000000000, 0.0000000000000000000, 0.0000000000000000000 ) ) ;
#258 = ORIENTED_EDGE ( 'NONE', *, *, #43, .F. ) ;
ENDSEC;
END-ISO-10303-21;
